Loading ...
Creative

cpanel

Login Form






Lost Password?
No account yet? Register

User1


user2


Open Panel
Banner
 
Artis/Band:  #  A  B  C  D  E  F  G  H  I  J  K  L  M  N  O  P  Q  R  S  T  U  V  W  X  Y  Z
Peterpan - Semua Tentang Kita

 

Intro:

 

C                         G                       
|-------------------------|-------------------------|
|-------------------------|-------------------------|
|-------------------------|-------------------------|
|-----2-----2/3--2-----0--|--------0-------0-----2--|
|--3-----3----------3-----|-----2-----2/3-----3-----|
|-------------------------|--3----------------------|

 Am7                     Em
|-----------------------|-----------------------|
|-----------1-----------|-----------0-----------|
|--------------0-----0--|--------0-----0-----0--|
|-----2-----------2-----|-----2-----------2-----|
|--0-----0--------------|-----------------------|
|-----------------------|--0--------------------|

 F                       C                        
|-----------------------|-------------------------|
|-----------1-----------|--------1----------------|
|-----0--------0-----0--|----------------0--------|
|--3-----3--------3-----|-----2-----0/2--------0--|
|-----------------------|--3----------------3-----|
|-----------------------|-------------------------|

 Am7                    
|-----------------------|
|-----------1-----------|
|--------------0-----0--|
|-----2-----------2-----|
|--0-----0--------------|
|-----------------------|

 

  G

|-----------------------------1--------|

|-----------1--------3-----------3-----|

|--------0-----0--------0-----------0--|

|-----0-----------0--------0-----------|

|--------------------------------------|

|--3-----------------------------------|


C       G      Am7      Em
Waktu terasa semakin berlalu
    F        C       Am7     G
Tinggalkan cerita tentang kita
C       G      Am7      Em
Akan tiada lagi kini tawamu
    F        C       Am7     G
Tuk hapuskan semua sepi di hati



Chorus:

 C      G          Am7     Em
Ada cerita tentang aku dan dia
    F       C         Am7    G
dan kita bersama saat dulu kala
 C      G          Am7       Em
Ada cerita tentang masa yang indah
     F       C         Am7       G
Saat kita berduka saat kita tertawa

 

Intro:


  C         G         Am7     Em
Teringat di saat kita tertawa bersama
F       C       Am7        G
Ceritakan semua tentang kita

 

 

Chorus:

 C      G          Am7     Em
Ada cerita tentang aku dan dia
    F       C         Am7    G
dan kita bersama saat dulu kala
 C      G          Am7       Em
Ada cerita tentang masa yang indah
     F       C         Am7       G
Saat kita berduka saat kita tertawa

 
< Prev